Black Sabbath - Black Sabbath, аккорды

Прокрутка
Тональность
Шрифт
100
Riff A:
E------------------------|-------------|--
B------------------------|-------------|--
G------------------------|-------------|-- 2
D--0--5------------------|---0--5------|--
A-------4H5P4H5P4H5P4Н5--|--------4----|--
E--3---------------------|---3---------|--

Riff B:
E-----------|--
B-----------|--
G-----------|-- 2
D----5------|--
A------4----|--
E--3--------|--

Verse 1 (w Riff B):
What is this that stands before me?
Figure in black that points at me.
Turn around quick and start to run.
Find out I'm the chosen one.

Riff A 2
Riff B 2

Verse 2 (w Riff B):
Big black shape with eyes of fire,
Telling people their desire,
Satan's sitting there, he's smiling,
Watches those flames get higher and higer.

Riff C:
E-------------------------|--
B-------------------------|--
G-------------------------|-- 4
D-----------0-1---0-----0-|--
A-------1-3-----3---1-3---|--
E-3-3-3-------------------|--

Verse 3 (w Riff C):
Is this the end my friend?
Satan's come around the bend.
People running 'cause they're scared.
People better go and beware.

------------------------|--------------------|--------------------|
------------------------|--------------------|--------------------|
------------------------|--------------------|--------------------|
----------5-------------|-----------5--------|----------5---------|
----5------------4(5)---|----5-------------4-|-----------------4--|
----3-------------------|----3---------------|----3---------------|

Riff A Riff B Riff C

Thunderstorm
Riff A, Riff B
Riff A, Riff B
Riff C, Riff C

Riff C Riff C
What is this that stands before me?
Figure in black which points at me.
Turn arround quick and start to run,
Find out I'm the chosen one. OHН NOO!!

Riff A, Riff B,
Riff A, Riff B,
Riff C, Riff C.

Riff C Riff C
Big black shape with eyes of fire
Telling people their desire
Satan sitting there he's smiling
Watches those flames get higher and higher. OHН noo please God
help me!

Riff A, Riff B
Riff A, Riff B, G5

----------------------------------------| (Riff D & E played together)
----------------------------------------|
----------------------------------------|
----------------------------------------| Riff D
---------------3--5--6--3--5-----3---5--|
---3--3--3--6-----------------6---------|

----------------------------------------|
----------------------------------------|
----------------------------------------| Riff E
----------------------------------------|
---5--5--5--5-----5--5-----5--5------5--|
---3--3--3--3-----3--3-----3--3------3--|

D & E x4

D&E x4 Is this the end my friend?
D&E x4 Satan's come arround the bend.
D&E x4 People run because they're scared.
D&E x4 You people better go and beware. 
NOO!! NOO!! PLEEASE! NOO!
 
 

Видео