Black Sabbath - All Moving Parts Stand Still (bass), аккорды

Прокрутка
Тональность
Шрифт
100
Intro:
G-------------------|
D------------------:|
A-0--3----0--5--3--:|
E-------------------|
 
Main Riff, is played with the slap technique
T P P T T T T P P P P
G-----------------------7-5--|
D----4-5-----------4-5------:|
A-0------0-5-3--0-----------:|
E----------------------------|

1st chorus:
G-----------------------------------------------------------|
D-----------------------------------------------------------|
A-3--3-3---5-5-5---7-7-7-7-7-7-7-7-7777777777777777--7/14--|
E---3-------5----7------------------------------------------|

2nd chorus:
G------------------------------------------------------------------|
D------------------------------------------------------------------|
A-3--3-3---5-5-5---7-7-7-7-7-7-7-7-5-5-5-5-5-5-5-5-3-3-3-3-3-3-3-3-|
E---3-------5----7-------------------------------------------------|

G------------------|
D------------------|
A--5-5-5-5-5-5-5-5-|
E------------------|

Kind of Bridge:
G------------3---------7-5--|
D--0-3-5-3-5---0-3-5-3------|
A---------------------------|
E---------------------------|
 
 

Видео