Black Sabbath - Disturbing The Priest, аккорды

Прокрутка
Тональность
Шрифт
100

Disturbing The Priest
 Black Sabbath - Born Again (1983)
 
 
 ----------7-----------7------------------------
 ------------5-----------5----------------------
 |--9---7---5---4-----------8----------10-------------------
 |--9---7---5---4-----------8----------10-------------------
 |--7---5---3---2-----------6-----------8-------------------
 -----------------------------------------------
 
 
 -----------------------------------------------
 -----------------------------------------------
 -----------------------------------------------
 |--9-9-9-9---9-9-9-9---9-9-9---5--------7---9--------------
 |--7-7-7-7---7-7-7-7---7-7-7---3--------5---7--------------
 -----------------------------------------------
 
 
 -----------------------------------------------
 -----------------------------------------------
 |---9---12-------9---7--------9--12--------7--7------------
 |---9---12-------7---7--------9--12--------5--7------------
 |---7---10-----------5--------7--12-----------5------------
 -----------------------------------------------
 
 
 --------------------------------------
 ---------------------------------------
 ---------------------------------------
 |--9-9-9-9---9-9-9-9---9-9-9---4----4--2-----------
 |--7-7-7-7---7-7-7-7---7-7-7---2----2--0--5--4-----
 ------------------------------3--2-----