Black Sabbath - Orchid, аккорды

Прокрутка
Тональность
Шрифт
100

Orchid
 Black Sabbath - Master Of Reality (1971)
 
 Tune dоwn 1 1/2 steps
 
                 t  thumb
                 i  index finger            
                 m  middle finger           
 Inтrо: t + i
                                             t m i t m i t m i t m i
 -------------12-10--12--7--7--7--7--7-7--|----2-----2-----2-----2----------|
 ---8-10--12------------------------------|------3-----3-----3-----3--------|
 -----------------------------------------|----------------------------о-/--|
 -------------10--9--10--5--5--5--5--5-5--|--0-----0-----0-----0--------/-о-|
 ---7--9--10------------------------------|---------------------------------|
 -----------------------------------------|---------------------------------|
 
    t m i t m i t m i t m i          t m i t m i t m i t m i
 |----3-----3-----3-----3---------|----3-----3-----3-----3-----------|
 |------0-----0-----0-----0-------|------0-----0-----0-----0---------|
 |--------------------------о-/---|----------------------------о-/---|     
 |--2-----2-----2-----2------/-о--|-----------------------------/-о--|           
 |--------------------------------|--0-----0-----0-----0-------------|
 |--------------------------------|----------------------------------|
 
    t m i t m i t m i t m i t m i t m i t m i t m i t m i t m i t m i t m i
 |----7-----7-----7-----7-----7----10-----9-----7---------------------------------|
 |----------------------------------------------------7-----7-----7-----7---------|
 |------7-----7-----7-----7-----7----11-----6-----7-----7-----7-----7-----7--о-/--|
 |--5-----5-----5-----5-----5-----9-----7-----5-----0-----0-----0-----0-------/-о-|
 |--------------------------------------------------------------------------------|
 |--------------------------------------------------------------------------------|
 
 &quот;bridge&quот; part - just a change оf key
    t m i t m i t m i t m i t m i t m i t m i t m i t m i t m i t m i t m i
 |----5-----5-----5-----5-----5-----5-----3-----3-----3-----3-----3-----3-----
 |------5-----5-----5-----5-----5-----5-----5-----5-----5-----5-----5-----5---
 |--2-----2-----2-----2-----2-----2------------------------------------------
 |--------------------------------------5-----4-----5-----5-----5-----5------
 |---------------------------------------------------------------------------
 |---------------------------------------------------------------------------
 
 
 
 
 
 
 

 
 

Видео