Black Sabbath - Psychophobia, аккорды

Прокрутка
Тональность
Шрифт
100

Psychophobia
 Black Sabbath - Cross Purposes (1994)
 
 
 ----------------------------------------------------------------
 -------------------------------------------------------------3--
 --------2-2------------------2------------------2-2--------0-2--
 --------2-2------------------2------------------2-2------0---0--
 --------0-0------------------0------------------0-0----2--------
 |--2h3p2-0--2h3p2-0------2h3p2-0-2h3p2-0----2h3p2-0-2h3p2-0------3----------
 
 
 my colors... 
 ----------------------------------------------------
 3--------------------------------3------------------
 |--1--------2----2---------------------------2---2--(and so on)-
 |--2--------0----2--------------2-4/64p2----0---2--------------
 |--2-------------0-------------------------------0--------------
 |--0-----------------3^--0--------------------------------------
 
 
 
 ----------------------------------------------
 ----------------------------------------------
 -----------9-7-9---------------------9-7------
 -----------9-7-9---------------------9-7------
 -----------7-5-7---------------------7-5------
 |--3p0-0-0-0-0-3p0-0-0-------3p0-0-0-0-0-3p0-0-0----------
 
 
 
 -----------------------------------------------------
 3----------------------------------------------------
 |--1--------2-----2------2------2-----------------------9-7-9---
 |--2--------0-----2------2------2-----------------------9-7-9---
 |--2--------------0------0------0-----------------------7-5-7---
 |--0-----------------3^-----3^-----3-3p0-0-0-0-0-3p0-0-0---------
 
 

 
 

Видео