Black Sabbath - Juniors Eyes, аккорды

Прокрутка
Тональность
Шрифт
100
Verse:
G-------------7779--------------------797---|
D---------5*----------------7-7-5--9------9-|
A-----5-7---------------5-7-----------------|
E-0-7---------------0-7---------------------|

G---------------------------------------9-7-------|
D---------5*-55-7-5--------------7-7-5------9-7-9-|
A-----5-7-----------7-------5-7-------------------|
E-0-7-------------------0-7-----------------------|

Chorus:
G-----------------797----------------------------------|
D--------------9------9--10-10----10-10-10-10----10-10-|
A-7-7---5-7-7------------------10-------------10-------|
E-----7------------------------------------------------|