Black Sabbath - Scary Dreams, аккорды

Прокрутка
Тональность
Шрифт
100
For Thoes of you Who Didn't
Catch Black Sabbath At Ozzfest 2001,
They did the new single from the upcoming CD

Scary Dreams
Black Sabbath
Tabbed By: Cody Angus (codester2k@home.com)

Tune 1 step down

|--------------------------------------------|
|--------------------------------------------|
|--------------------------------------------|
|-------------------5------------------------|
|---7-5----7-----5----7----------------------|
|-0------7---5h7---------0-------------------|

|--------------------------------------------|
|--------------------------------------------|
|--------------------------------------------|
|------------------5-------------------------|
|---7-5---7-----5----7---7-5---5---5---------|
|-0-----7---5-7--------0-----7---5---73p0---|

Just The Main Riffs, The Solos will be tabbed once a studio version is released
    S
  BLACK
    B
    B
    A
    T
    H
 
 

Видео