Дельфин - Весна, аккорды

Прокрутка
Тональность
Шрифт
100
Intro: 
E|----------------------------------------------1-|
B|------------------------------------------------|
G|------------------------------------------------|
D|------------------------------------------------|
A|-3-------------------1--------------------------|
E|--------------------------------------1---------|
   Мы обязательно встретимся слышишь меня. Прости.

E|------------------------------------------------|
B|----------------------------------------1-------|
G|------------------------------------------------|
D|------------------------------------------------|
A|-3-------------------1--------------------------|
E|--------------------------------------1---------|
   Там   куда  я   ухожу.           Весна.
   
(две оставшиеся строчки также, а потом играются эти
  "замысловатые табы" вместе с аккордами)

   Cm                  A#                Fm
   Мы обязательно встретимcя слышишь меня. Прости.
   Cm             A#     Fm
   Там/, куда я ухожу, - весна.
   Cm          A#             Fm
   Я знаю, ты сможешь меня найти.
   Cm      A#      Fm
   Не оставайся одна.
 
 

Видео