Isaak Chris - Blue Hotel, аккорды

Прокрутка
Тональность
Шрифт
100
Am Am D Dm
Blue Hotel, On a lonely highway
Am Am D Dm
Blue Hotel, Life don't work out my way

E|---------0---|-0-|-X-|
B|-------1---1-|-1-|-X-|
G|-----2-------|-2-|-1-| x3
D|---2---------|-3-|-2-|
A|-0-----------|-3-|-2-|
E|-------------|-X-|-X-|

Am Am D Dm
Blue Hotel, On a lonely highway
Am Am D Dm
Blue Hotel, Life don't work out my way
F E
I wait alone each lonely night
Am Am D Dm
Blue Hotel
Am Am D Dm
Blue Hotel
Am Am D Dm
Blue Hotel, Every room is lonely
Am Am D Dm
Blue Hotel, I was waiting only
F E
The night and the light of her lonely dream
Am Am D Dm
Blue Hotel
Am Am D Dm
Blue Hotel

E|---------0---|-0-|-X-|
B|-------1---1-|-1-|-X-|
G|-----2-------|-2-|-1-| x3
D|---2---------|-3-|-2-|
A|-0-----------|-3-|-2-|
E|-------------|-X-|-X-|

Am Am D Dm / Am Am D Dm / F E
Am Am D Dm / Am Am D Dm

Am Am D Dm
Blue Hotel, On a lonely highway
Am Am D Dm
Blue Hotel, Life don't work out my way
F E
I wait alone each lonely night
Am Am D Dm
Blue Hotel
Am Am D Dm
Blue Hotel

Outro: Am D Dm Am       
 
 

Видео