Isaak Chris - Wicked Game, аккорды

Прокрутка
Тональность
Шрифт
100
Intro: Bm A E

Part 1: 1 00:00-00:17              
|-------------------------------| 
|0b--7s0-0b--7-5-3-2-0----------| 
|-----------------------2---1---| 
|----------------------4---2----| 
|-------------------------------| 
|-------------------------------| 

Part 2: 00:18-00:34
|-2----0-----------------------------|
|---3----3--2------------------------|
|-------------4--2--1----1--2--4b----|
|----------------------2-------------|
|------------------------------------|
|------------------------------------|

Part 1 & Part 2 }x2

Melodic Fills: These are played at key parts in the song.
|------------|        |-----------|
|------------| Fill 1 |-----------| Fill 2
|----2---1---|        |----1-2-4--|
|--4---2-----|        |--2--------|
|------------|        |-----------|
|------------|        |-----------|

Verse 1:
Bm A E {Fill 1}
The world was on fire and no one could save me but you.
Bm A E {Fill 2}
It's strange what desire will make foolish people do.
Bm A E {Fill 1}
I never dreamed that I'd meet somebody like you.
Bm A E {Fill 2}
I never dreamed that I'd love somebody like you.

Chrous:
Bm A E {Fill 1}
I don't want to fall in love. (This world is only gonna 
break your heart)
Bm A E {Fill 2}
I don't want to fall in love. (This world is only gonna 
break your heart)
{Part 2} {Part 2}
With you. With you. (This world is only gonna break your heart)

Verse 2:
Bm A E {Fill 1}
What a wicked game to play, to make me feel this way.
Bm A E {Fill 2}
What a wicked thing to do, to let me dream of you.
Bm A E {Fill 1}
What a wicked thing to say, you never felt this way.
Bm A E {Fill 2}
What a wicked thing to do, to make me dream of you and,

Chrous:
Bm A E {Fill 1}
I don't want to fall in love. (This world is only gonna 
break your heart)
Bm A E {Fill 2}
I don't want to fall in love. (This world is only gonna 
break your heart)
{Part 1} {Part 2}
With you.

Verse 3:
Bm A E {Fill 1}
The world was on fire and no one could save me but you.
Bm A E {Fill 2}
It's strange what desire will make foolish people do.
Bm A E {Fill 1}
I never dreamed that I'd love somebody like you.
Bm A E {Fill 2}
I never dreamed that I'd loose somebody like you no,

Chrous:
Bm A E {Fill 1}
I don't want to fall in love. (This world is only gonna 
break your heart)
Bm A E {Fill 2}
I don't want to fall in love. (This world is only gonna 
break your heart)
{Part 2} {Part 2}
With you. With you. (This world is only gonna break your heart)
Bm A E
Nobody loves no one.
 
 
Свернуть Распечатать

Видео