Isaak Chris - Somebodys Crying (bass), аккорды

Прокрутка
Тональность
Шрифт
100
Intro: 
|------------|----------|----------|----------|------------|
|------------|----------|----------|----------|------------|
|------1-0---|-----3-5--|-1--------|-----3-5--|-1-----1-0--|
|----------3-|-1-1------|---1------|-1-1------|---1-------3|


Verse 1:
|------------|----------|----------|--------|----------|-----------------|
|------------|----------|----------|--------|----------|-----------------|
|------3-5---|----------|------3-5-|--------|------3-5-|---------1--0----|
|-1--1-------|-6--1-----|-1--1-----|-6--1---|-1--1-----|-6--1----------3-|

|------------|----------|
|------------|----------|
|------3-5---|----------|
|-1--1-------|-6--1-----|

Verse 2:
|------------|----------|----------|--------|----------|-----------------|
|------------|----------|----------|--------|----------|-----------------|
|------3-5---|----------|------3-5-|--------|------3-5-|---------1--0----|
|-1--1-------|-6--1-----|-1--1-----|-6--1---|-1--1-----|-6--1----------3-|

|------------|----------|
|------------|----------|
|------3-5---|----------|
|-1--1-------|-6--1-----|

Chorus: ("So please return the love…")
|--------------------|--------------------|--------------------|
|--------------------|--------------------|--------------------|
|--------0--1-1--3-3-|--------0--1-1--3-3-|--------0--1-1--3-3-|
|-1-1--3-------------|-1-1--3-------------|-1-1--3-------------|

|-------------------|
|-------------------|
|--------0--1-1-0---|
|-1-1--3----------3-|

("please let me know…")
|--------------------|--------------------|--------------------|
|--------------------|--------------------|--------------------|
|--------0--1-1--3-3-|--------0--1-1--3-3-|--------0--1-1--3-3-|
|-1-1--3-------------|-1-1--3-------------|-1-1--3-------------|

("I know when somebody's lying…")
|--------------------|--------|--------|------------|---------------|
|----------------0-2-|-3---0--|--------|-3--3-2-0---|---------------|
|--------0--1-1------|--------|--1-----|------------|--1------1-0---|
|-1-1--3-------------|--------|------1-|------------|------1------3-|

Bridge: (same as chorus)
|--------------------|--------------------|--------------------|
|--------------------|--------------------|--------------------|
|--------0--1-1--3-3-|--------0--1-1--3-3-|--------0--1-1--3-3-|
|-1-1--3-------------|-1-1--3-------------|-1-1--3-------------|

|---------------------|
|---------------------|
|--------0--1-1--0----|
|-1-1--3-----------3--|

|--------------------|--------------------|--------------------|
|--------------------|--------------------|--------------------|
|--------0--1-1--3-3-|--------0--1-1--3-3-|--------0--1-1--3-3-|
|-1-1--3-------------|-1-1--3-------------|-1-1--3-------------|

("I know that somebody's lying…")
|--------------------|--------|--------|------------|----------|
|----------------0-2-|-3---0--|--------|-3--3-2-0---|----------|
|--------0--1-1------|--------|--1-----|------------|--1-------|
|-1-1--3-------------|--------|------1-|------------|------1---|

Verse: 3
|------------|----------|----------|--------|----------|-----------------|
|------------|----------|----------|--------|----------|-----------------|
|------3-5---|----------|------3-5-|--------|------3-5-|---------1--0----|
|-1--1-------|-6--1-----|-1--1-----|-6--1--|-1--1------|-6--1----------3-|

|------------|----------|
|------------|----------|
|------3-5---|----------|
|-1--1-------|-6--1-----|


Chorus ("So please return the love…")
|--------------------|--------------------|--------------------|
|--------------------|--------------------|--------------------|
|--------0--1-1--3-3-|--------0--1-1--3-3-|--------0--1-1--3-3-|
|-1-1--3-------------|-1-1--3-------------|-1-1--3-------------|

|-------------------|
|-------------------|
|--------0--1-1-0---|
|-1-1--3----------3-|

("please let me know…")
|--------------------|--------------------|--------------------|
|--------------------|--------------------|--------------------|
|--------0--1-1--3-3-|--------0--1-1--3-3-|--------0--1-1--3-3-|
|-1-1--3-------------|-1-1--3-------------|-1-1--3-------------|

("I know that somebody's lying…")
|--------------------|--------|--------|------------|----------------|
|----------------0-2-|-3---0--|--------|-3--3-2-0---|----------------|
|--------0--1-1------|--------|--1-----|------------|--1--3----1-0---|
|-1-1--3-------------|--------|------1-|------------|-------1------3-|

End ("oh ahhhhh ah ahh ah ah")
|--------------------|--------------------|--------------------|
|--------------------|--------------------|--------------------|
|--------0--1-1--3-3-|--------1----1--3-3-|--------0--1-1--3-3-|
|-1-1--3-------------|-1-1--3-------------|-1-1--3-------------|

|--------------------|--------------------|-------------------|
|--------------------|--------------------|-------------------|
|--------1---1--0----|--------0--1-1--3-3-|--------1----1--3-3|
|-1-1--3----------3--|-1-1--3-------------|-1-1--3------------|

|-----------|------------|
|-----------|------------|
|----3--1---|-1--0-------|
|-1---------|-------3--1-|
 
 
Свернуть Распечатать

Видео