Testament - Return To Serenity, аккорды

Прокрутка
Тональность
Шрифт
100
Return to Serenity  By: Testament
>From the album  The Ritual
Transcribed by: Edwardo                    tune down 1/2 step

  guitar 1     guitar 2 (play over what guitar 1 is playing)
e|------------|----8---7---5---------12---10--8--------17-----15--12-|
B|------------|------------------------------------------------------|
G|------------|--9---7-----5------12---10-----9-----17-----16-----14-|
D|------2---3-|------------------------------------------------------|
A|--0---------|------------------------------------------------------|
E|------------|------------------------------------------------------|

  guitar 1
e|---------------------------------------|--------------------------|
B|---------------------------------------|--------0-----------------|
G|------------------------h-p------------|------0---0-------0-------|
D|----2--3-3~5--3-2-3-3--2>3ЬїїZЬїїlЬїї“ЬїїЇЬїїТЬїїоЬїїэЬїїQЭїїuЭїї“Эїї­ЭїїЖЭїїЩЭїїзЭїї-ЮїїHЮїї~Юїїure if it's right cause he uses some kind of delay)
e|--------------------10---p-----------------h-h---------7---p--------|
B|-----8-10~12-----------128>10---------10=hammer on             that's all I got right now when I get the
p
 
 

Видео