Blondie - Hanging On The Telephone, аккорды

Прокрутка
Тональность
Шрифт
100
Verse:
E|----------------------------------------------------|
B|-666666--------666666--8-6h8-6666-------------------|
G|-333333-3------333333-3------3333-3h5p3-------------|
D|---------5-3h5--------------------------3h5p3-------|
A|----------------------------------------------1h3p1-|
E|----------------------------------------------------|

First Chorus:
E|------------------------|
B|------------------------|
G|-8-7-5------------------|
D|--------3---------------|
A|-6-5-3--------5-----5---|
E|--------1--3-6-6-3-6-6/-|

Verse

Pre Chorus:
E|---------12121212-15151515-12121212----------------------------------|
B|-13131313-----------------------------------11111111-151515-11111111-|
G|------------------------------------12121212-------------------------|
D|---------------------------------------------------------------------|
A|---------------------------------------------------------------------|
E|---------------------------------------------------------------------|

Chorus
Verse
Chorus (miss out end lead part)

Solo:
E|-----------------------------|---|--------------------|
B|-88-10^-8--------------------|---|--------------------|
G|----------101010-------------|---|-101010-------------|
D|-----------------8h10p8------|X3-|--------8h10p8------|
A|------------------------10-8-|---|---------------10-8-|
E|-----------------------------|---|--------------------|

Solo End:
E|-----------|
B|-----------|
G|-8-7-3-----|
D|-------3-5-|
A|-6-5-1-----|
E|-------1-3-|

Verse
Pre Chorus
Chorus

Outro:
E|---------------|
B|-------6666666-|
G|-------3333333-|
D|---------------|
A|----5----------|
E|-3-6-6---------|

Solo End
 
 

Видео