Deep Purple - Smoke On The Water (intro), аккорды

Прокрутка
Тональность
Шрифт
100
Intro:
  1 + 2 + 3 + 4 +   1 + 2 + 3 + 4 +
e----------------[e----------------[
b----------------[b----------------[
g----------------[g----------------[
d-2---5---7------[d-2---5-8-7------[
a-2---5---7------[a-2---5-8-7------[
e-0---3---5------[e-0---3-6-5------[


  1 + 2 + 3 + 4 +   1 + 2 + 3 + 4 +
e----------------[e----------------]
b----------------[b----------------]
g----------------[g----------------]
d-2---5---7------[d-5---2v---------]
a-2---5---7------[a-5---2v---------]
e-0---3---5------[e-3---0v---------]
 
 

Видео