Deep Purple - Smoke On The Water, аккорды

Прокрутка
Тональность
Шрифт
100
e|--------------------------------------------------------
B|--------------------------------------------------------
G|--------------------------------------------------------
D|--------------------------------------------------------
A|-------------------------0-3-5-0-3-6-5-0-3-5-3-0--------
E|-0-3-5-0-3-6-5-0-3-5-3-0--------------------------------

e|--------------------------------------------------------
B|--------------------------------------------------------
G|-------------------------0-3-5-0-3-6-5-0-3-5-3-0--------
D|-0-3-5-0-3-6-5-0-3-5-3-0--------------------------------
A|--------------------------------------------------------
E|--------------------------------------------------------

e|-------------------------0-3-5-0-3-6-5-0-3-5-3-0--------
B|-0-3-5-0-3-6-5-0-3-5-3-0--------------------------------
G|--------------------------------------------------------
D|--------------------------------------------------------
A|--------------------------------------------------------
E|--------------------------------------------------------
 
 

Видео