Deep Purple - Smoke On The Water (btab), аккорды

Прокрутка
Тональность
Шрифт
100
||-----------------|---------------|----------------|--------------||
||--0---3---5----0-|---3---6-5-----|-0---3---5----3-|---0----(0)---||
||о----------------|---------------|----------------|-------------о||
||-----------------|---------------|----------------|--------------||

|-0---3---5----0-|---3---6-5-----|-0---3---5----3-|---0----(0)------|
|-0---3---5----0-|---3---6-5-----|-0---3---5----3-|---0----(0)--(5)-|
|----------------|---------------|----------------|-------------(5)-|
|----------------|---------------|----------------|-----------------|

|-----------------|-----------------|-0---0-----------|---------0---0-|
|-----5-------5---|-----5-------5---|---0-----3---3---|-----5-----0---|
|---5-------5-----|---5-------5-----|-----------3-----|---5-----------|
|-3-------3-------|-3-------3-------|-----------------|-3-------------|

|-----------------|-----------------|-----------------|---------------|
|-----5---5---5---|-----5-------5---|-----5-------5---|-----5-------3-|
|---5-------5-----|---5-------5-----|---5-------5-----|---5-------3---|
|-3---------------|-3-------3-------|-3-------3-------|-3-------1-----|

|-----------------|-----------------|-----------------|---------------|
|-----5-------5---|-----5-------5---|-----5-------5---|-----5---3---3-|
|---5-------5-----|---5-------5-----|---5-------5-----|---5-------3---|
|-3-------3-------|-3-------3-------|-3-------3-------|-3-------------|

|-----------------|-----------------|---------------|
|-----5-------5---|-----5-------5---|-----5-------5-|
|---5-------5-----|---5-------5-----|---5-------5---|
|-3-------3-------|-3-------3-------|-3-------3-----|

|-----------------|---------------||
|-----5---3---3---|-----5-------5-||
|---5-------3-----|---5-------5---||
|-3---------------|-3-------3-----||

|-------5----|------------|------0-(0)-|
|----5-------|-------6----|----0-------|
|-3----------|----6-------|------------|
|------------|-4----------|-3----------|

|-(0)--------|-------5----|---------|
|------------|----5-------|-------6-|
|------------|-3----------|----6----|
|------------|------------|-4-------|

|----------------|----------------|----------------|--------------|
|-----3---5------|---3---6-5------|-----3---5----3-|-(3)----------|
|-5---3---5----5-|---3---6-5------|-5---3---5----3-|-(3)-5----(5)-|
|-5------------5-|----------------|-5--------------|-----5----(5)-|

|-----3---5------|---3---6-5-----|-----3---5----3-|-------------5-||
|-5---3---5----5-|---3---6-5-----|-5---3---5----3-|---5----(5)--5-||
|-5------------5-|---------------|-5--------------|---5----(5)--5-||
|----------------|---------------|----------------|---------------||

||------------------|-----------------|-----------------|-----------------||
||------5-------5---|-----5-------5---|-----5-------3---|-----5-------5---||
||о---5-------5-----|---5-------5-----|---5-------3-----|---5-------5----о||
||--3-------3-------|-3-------3-------|-3-------1-------|-3-------3-------||

|-------5----|------------|-0--------|-(0)--------|-------5----|---------|
|----5-------|-------6----|----------|------------|----5-------|-------6-|
|-3----------|----6-------|----------|------------|-3----------|----6----|
|------------|-4----------|-3--------|-(3)--------|------------|-4-------|

|----------------|----------------|----------------|--------------|
|-----3---5------|---3---6-5------|-----3---5----3-|-(3)----------|
|-5---3---5----5-|---3---6-5------|-5---3---5----3-|-(3)-5----(5)-|
|-5------------5-|----------------|-5--------------|-----5----(5)-|

|----------------|----------------|----------------|---------------------||
|-----3---5------|---3---6-5------|-----3---5----3-|------------------10-||
|-5---3---5----5-|---3---6-5------|-5---3---5----3-|----5----(5)--12-----||
|-5------------5-|----------------|-5--------------|----5----(5)---------||

|----------------|----------------|----------------|-----------------||
|----------------|----------------|----------------|---------------8-||
|----------------|----------------|----------------|---------------8-||
|----------------|----------------|----------------|---------------8-||

|---------------------------------|---------------------------|
|-----------------13pb15==(13)r13p|=11---------11b11.5--------|
|-12-------(12)-------------------|----12---------------------|
|---------------------------------|------------------------12-|

|---------------------------------|------------------------|
|------5-----5--------------------|--5-----5-------------5-|
|----5---5------5-----------------|-----5--------------5---|
|--3------------------------------|-------------3----------|

|------------------------------------|
|-------11-11b13==(11)-(11)r---11-10-|
|-10-12------------------------------|
|------------------------------------|

|------------------------------|
|--------5-------------------5-|
|-----5------------------5-----|
|--3----------------3----------|

|------------------------------|----------------------------------------------|
|------------------------------|--------------------------------------------8-|
|-12-14-12h14p12s10-12-10-8-10-|-10-10pb12==(10)r-10-10pb12==(10)-(10)r-------|
|------------------------------|----------------------------------------------|

|------------------------------|--------------------------------------------|
|--------5----------------3h=5-|-------------------5----------------------5-|
|-----5-----------------5------|--------------5-------------------------5---|
|--3-----------------3---------|--3---------------------------------3-------|

|--------------------------------------8------|
|-11-11-(11)pb13==11-11b13==(11)-(11)r---8-11-|
|---------------------------------------------|
|---------------------------------------------|

|------------------------------------------|
|------------------5---------------------5-|
|---------5----------------------------5---|
|--3-------------------------------3-------|

|----------------8-----------------------------------|
|--------------8---11-10-8---------------------------|
|-10b12==(10)r-------------11--10p8----10-8-7--------|
|-----------------------------------10--------10-8-7-|
|----------------------------------------------------|

|---------------------------------------------|
|----------------------5--------------------3-|
|----------------5---------(5)----------5-----|
|----------3----------------------3-----------|

|-------------------|--------------------------|
|-------------8-7-5-|-3b5==(3)r3-(3)---5-3-2-3-|
|----8-7-10-8-------|--------------------------|
|-10----------------|--------------------------|

|-------------------|------------------------|
|------5--------5---|-------------5--------5-|
|----5--------5-----|-------5----------3-5---|
|--3--------3-------|-3----------------------|

|---------------------------|-----------3---------3-3-----------------------|
|---------------------------|---------3---6b8-(6)-----6-5-3-----------------|
|-2-3-2-0-(0)-----(0)-(0)---|-5b7-(5)-----------------------6-5p3---5-----3-|
|---------------------------|-------------------------------------5---------|

|---------------------------|---------------------------------------|
|---------------------------|---------------------5---------------5-|
|-----5----------------5----|-----------5-------------5-------5-----|
|-3-5------3----5-----------|------3----------------------3---------|

|---------------------------------------------|
|-----------------------------------------3-6-|
|-5b7-(5)---5b7-(5)---5b7-(5)---5b7-(5)-------|
|---------------------------------------------|

|---------------------------------------------|
|-------------------5---------------------5---|
|---------5-----------------------------5---5-|
|------3------------------------3-------------|

|-3-------6-8b10-(8)-----|-8b10-(8)-8-6-8----------|
|---3-6-8----------------|----------------8------8-|
|------------------------|-------------------------|
|------------------------|-------------------------|

|-----5--------------5---|------------5--------5-|
|---5-------------5------|----------5--------5---|
|-3-------3--------------|-------3--------3------|

|------------------8--------8------8----8-10-|-11-13---13b15==(13)-(13)r-----13b15-|
|-11-------------8---11--8----11-8---11------|-------------------------------------|
|----10b12==(10)-----------------------------|-------------------------------------|
|--------------------------------------------|-------------------------------------|

|------------------5--------------------3----|-------------------------------|
|-------------5---------(5)--------5-------5-|-------5---------------------5-|
|--3---------------------------3-------------|-----5------------5----3---5---|
|--------------------------------------------|--3----------------------------|

|-(13)-13-(13)pb15-(13)-13-13b15==(13)r---13-|
|--------------------------------------------|
|--------------------------------------------|
|--------------------------------------------|

|-------------------------------------|
|-----------------------------------5-|
|--------------------5----------------|
|---3---------------------------------|

|-(13)pb15-(13)-13-10---------------|
|---------------------13-13b15-(13)-|
|-----------------------------------|
|-----------------------------------|

|----------------------------------|
|--------------------------------5-|
|-------------------5--------------|
|------------3---------------------|

|------------------------------------|----8-6-8-8b10--(8)-|
|---------6--------------------------|-/8-----------------|
|-5b7-(5)---5pb6==(5)r5-3-5-3b3.5----|--------------------|
|---------------------------------5--|--------------------|

|------1-----------------------------|--1-----------------------|
|------x-----------------------------|--0-----------------------|
|------3-----------------------------|------3-------------------|
|------1-----------------------------|-----------------1---(1)/-|

                       |---3---|   |-3--|
  +Е  e e e e e e e    q   q   q   q  q Q
|-(8)-8-8-8-8-8-8-8r-|-9---9---9---9--8---|
|--------------------|------------------6-|
|--------------------|--------------------|
|--------------------|--------------------|

|--------------------|---------------|
|-------3---5--------|---3-------6-5-|
|--5----3---5-----5--|---3-------6-5-|
|--5--------------5--|---------------|

|-----------------------|-------||
|-(6)b8====(6)----------|-(6)r--||
|-----------------------|-------||
|-----------------------|-------||

|-----------------------|---------------||
|-----------3----5----3-|-(3)-----------||
|--5--------3----5----3-|-(3)--5----(5)-||
|--5--------------------|------5----(5)-||

|----------------|----------------|----------------|-------------------|
|-----3---5------|---3---6-5------|-----3---5----3-|-(3)-----------(5)-|
|-5---3---5----5-|---3---6-5------|-5---3---5----3-|-(3)-5----(5)--(5)-|
|-5------------5-|----------------|-5--------------|-----5----(5)--(5)-|

|-----5-------5---|-----5-------5---|-----5-------3---|-----5-3-----|
|-----5-------5---|-----5-------5---|-----5-------3---|-----5-3-----|
|---5-------5-----|---5-------5-----|---5-------3-----|---5-------5-|
|-3-------3-------|-3-------3-------|-3-------1-------|-3-------3---|

|-----------------|-----------------|-----------------|-----------------|
|-----5-------5---|-----5-------5---|-----5-------3---|-----5-5-------5-|
|---5-------5-----|---5-------5-----|---5-------3-----|---5---------5---|
|-3-------3-------|-3-------3-------|-3-------1-------|-3---------3-----|

|-----------------|-----------------|-----------------|-----------------|
|-----5-------5---|-----5-------5---|-----5---3---3---|-----5-------5---|
|---5-------5-----|---5-------5-----|---5-------3-----|---5-------5---5-|
|-3-------3-------|-3-------3-------|-3---------------|-3-------3-------|

|-----------------|-----------------|-----------------|-----------------|
|-----5-------5---|-----5-------5---|-----5-------3---|-----5-------5---|
|---5-------5---5-|---5---5---5---5-|---5---5---3---3-|---5---5---5-----|
|-3-------3-------|-3-------3-------|-3-------1-------|-3-------3-----3-|

|-------5----|--------------|----0----0-|
|----5-------|-------6------|----0------|
|-3----------|----6---------|-----------|
|------------|-4------------|-3---------|

|-(0)--------|-------5----|---------|
|------------|----5-------|-------6-|
|------------|-3----------|----6----|
|------------|------------|-4-------|

||------3---5------|---3---6-5------|-----3---5----3-|-(3)-------------||
||--5---3---5----5-|---3---6-5------|-5---3---5----3-|-(3)-5----(5)----||
||о-5------------5-|----------------|-5--------------|-----5----(5)---о||
||-----------------|----------------|----------------|-----------------||

|-----------------|-----------------|-----------------|-----------------|
|-----5-------5---|-----5-------5---|-5---5---3---3---|---5----(5)--(5)-|
|---5-------5-----|---5-------5-----|---5-------3-----|---5----(5)--(5)-|
|-3-------3-------|-3-------3-------|-----------------|-----------------|
 
 

Видео