Deftones - Back To School, аккорды

Прокрутка
Тональность
Шрифт
100
Title: Back to School
Artist: Deftones
Album: White Pony (rerelease only)
Tuning: low to high CGCF (actually you only need the low C)
Tabbed by: Mark Buchner (markb513@hotmail.com)

~~~~=let ring /=slide

Play Riff 1 x8:

F|----------------||
C|----------------||
G|----------------||
C|-8--0--0--0--0--||

Play Riff 2 (Verse) x4:

F|---------------|------------|-----------------|-----------------||
C|---------------|------------|-----------------|-----------------||
G|---------------|------------|-----------------|-----------------||
C|-5-5-5-5-5-5-4-|--4-4/8-8-8-|-0-0-0-0-0-0-0-0-|-0-0-0-0-0-0-0-0-||

Play Riff 3 x2:

F|-----------------|-----------------|-----------------|----------------
C|-----------------|-----------------|-----------------|----------------
G|-----------------|-----------------|-----------------|----------------
C|-8-8-8-8-8-8-8-8-|-8-8-8-8-8-8-8-8-|-0-0-0-0-0-0-0-0-|-0-0-0-0-0-0-0-0

cont'd
F|-----------------|-----------------|-----------------|-----------------||
C|-----------------|-----------------|-----------------|-----------------||
G|-----------------|-----------------|-----------------|-----------------||
C|-5-5-5-5-5-5-5-5-|-5-5-5-5-5-5-5-5-|-5-4-4-4-4-4-4-4-|-4-4-4-4-4-4-4-4-||

Play Riff 2 x4

Play Riff 3 x4

Play Riff 1 x3

Play this once:

F|----------||
C|----------||
G|----------||
C|-8--0~~~~~||

Play Riff 3 x6

Play Riff 1 x3

Play this once:

F|----------||
C|----------||
G|----------||
C|-8--0~~~~~||

That's it

Visit my band's site at geocities.com/morphallaxis2001
 
 

Видео