Deftones - My Own Summer, аккорды

Прокрутка
Тональность
Шрифт
100
Intro and verses
Distortion
e-------------------------------
b-------------------------------
g-------------------------------
d-------------------------------
a-------------------------------
d-0-11-12-0-11-8-0-8-0-8-7-0-8-5    


Chorus
Heavy Distortion
e----------------------------
b----------------------------
g----------------------------
d-0-7-8-0-8-5-0-5-0-8-7-0-8-4
a-0-7-8-0-8-5-0-5-0-8-7-0-8-4
d-0-7-8-0-8-5-0-5-0-8-7-0-8-4       


Bridge
Heavy Distortion
e--------------------------------
b--------------------------------
g--------------------------------
d-8-8-8-8-8-8-8-8-8-8-8-8-8-8-8-8
a-8-8-8-8-8-8-8-8-8-8-8-8-8-8-8-8
d-8-8-8-8-8-8-8-8-8-8-8-8-8-8-8-8

e---------------------            
b---------------------
g---------------------
d-5-5-5-8-0--5-5-5-8-0
a-5-5-5-8-0--5-5-5-8-0              
d-5-5-5-8-0--5-5-5-8-0

                                   
Order:

Intro x8
Chorus x4
Verse x8
Chorus x4
Bridge x2
Bass Solo
Chorus x8
Bridge x4 (Repeat second part a couple of times)
Chorus x4
 
 

Видео