Deftones - Knife Prty, аккорды

Прокрутка
Тональность
Шрифт
100
Knife Prty-Deftones
White Pony

Drop C
C G C F A D

Fig 1.

d-----------------------------------------------------------------
a-5--5-5-5-5--5-5-5-5-5-5--5-5-5--5-5-5-5--5-5-5--5--5---5-5-5----
f-5--5-5-5-5--5-5-5-5-5-5--5-5-5--5-5-5-5--5-5-5--5--5---5-5-5----
c-3--3-3-3-3--3-3-3-3-3-3--3-3-3--3-3-3-3--3-3-3--3--3---3-3-3----
g-3--3-3-3-3--3-3-3-3-3-3--3-3-3--3-3-3-3--3-3-3--3--3---3-3-3----
c-3--3-3-3-3--3-3-3-3-3-3--3-3-3--3-3-3-3--3-3-3--3--3---3-3-3----

d-----------------------------------------------------------------
a-----------------------------------------------------------------
f-9--9-9-9-9--9-9-9-9-9-9--9-9-9----------------------------------
c-9--9-9-9-9--9-9-9-9-9-9--9-9-9-10101010---1010--9--9---9-9-9----
g-7--7-7-7-7--7-7-7-7-7-7--7-7-7--7-7-7-7--7-7-7--7--7---7-7-7----
c-7--7-7-7-7--7-7-7-7-7-7--7-7-7--7-7-7-7--7-7-7--7--7---7-7-7----

Verses Fig 1.

Chorus:

d-----------------------------------------------------------------
a-1--1-1-1--1---1-1-1-1--1-1-1------------------------------------
f-3--3-3-3--3---3-3-3-3--3-3-3-10-101010-9--9-9-9--9-9-9-9-9--9---
c-3--3-3-3--3---3-3-3-3--3-3-3--x--x-x-x-x--x-x-x--x-x-x-x-x--x---
g-1--1-1-1--1---1-1-1-1--1-1-1--8--8-8-8-7--7-7-7--7-7-8-7-7--7---
c-----------------------------------------------------------------

d-----------------------------------------------------------------
a-3---------------------------------------------------------------
f-2---------------------------------------------------------------
c-0---------------------------------------------------------------
g-0---------------------------------------------------------------
c-0---------------------------------------------------------------

Half Time feel

d-----------------------------------------------------------------
a---------------------------------3-------------------------------
f-5-------------------------------x-------------------------------
c-2-------------------------------3-------------------------------
g-0-------------------------------0-------------------------------
c---------------------------------0-------------------------------

Outro Chord:

d-1---------------------------------------------------------------
a-3---------------------------------------------------------------
f-2---------------------------------------------------------------
c-0---------------------------------------------------------------
g-0---------------------------------------------------------------
c-0---------------------------------------------------------------

that’s all

trevor jones
timmy91199@yahoo.ca
 
 

Видео