Deftones - Lifter, аккорды

Прокрутка
Тональность
Шрифт
100

-------------------------------------------------------------------------------
			     Lifter - Deftones
-------------------------------------------------------------------------------
Tabbed by:rockr_01
Email:afmondragonb@aol.com
--I really like this song--
Tuning:DADGBE
Main Riff (rhythim varies)
e|---------------------------------------------------------------------------|
B|---------------------------------------------------------------------------|
G|---------------------------------------------------------------------------|
D|-0-2-2-2-2-2-2-2--233--3-3-3-3-7--0----------------------------------------|
A|-x-x-x-x-x-x-x-x--xxx--x-x-x-x-x--x----------------------------------------|
D|-0-2-2-2-2-2-2-2--233--3-3-3-3-7--0----------------------------------------|
PM....................................
Chorus				Chorus Prt. 2
e|---------2-------------4---|---------------------------4-------------------|
B|---------4-------------6---|---------------------------6-------------------|
G|---------3-------------5---|---------------------------5-------------------|
D|--0-2-2------0-3-3-3-------|0-2-2-2-2-0-0-0-333-3-3-3----------------------|
A|--0-2-2------0-3-3-3-------|0-2-2-2-2-0-0-0-333-3-3-3----------------------|
D|--0-2-2------0-3-3-3-------|0-2-2-2-2-0-0-0-333-3-3-3----------------------|
Fill
e|---------------------------------------------------------------------------|
B|---------------------------------------------------------------------------|
G|--0-2-2-2-2-2-2-2--233--3-3-3-3-7------------------------------------------|
D|---------------------------------------------------------------------------|
A|---------------------------------------------------------------------------|
D|---------------------------------------------------------------------------|
Middle (i dont know how long this lasts)
e|---------------------------------------------------------------------------|
B|---------------------------------------------------------------------------|
G|---------------------------------------------------------------------------|
D|---99999999999999----------------------------------------------------------|
A|---99999999999999----------------------------------------------------------|
D|---99999999999999----------------------------------------------------------|

Order:
Main Riff x9
Chorus x2
Chorus Prt. 2
Fill
Main Riff x9
Chorus x2
Chorus Prt. 2
Chorus x3
Chorus Prt.2 x2
Middle
Chorus x2
Chorus Prt. 2
Fill
Main Riff x9
Chorus x2
Chorus Prt. 2
Chrorus x3
Chorus Prt. 2
Middle
Chorus x2
Chorus Prt. 2
Fill x5
Main Riff x9
Middle
Main Riff x9
(Listen to the song to the get the order)
-----------------------------------------------------------------------------------
x=mute
 
 

Видео