Deftones - Minus Blindfold, аккорды

Прокрутка
Тональность
Шрифт
100
Minus Blindfold 
Deftones 
Adrenaline 
tabbed by ? 
sent in by james cople ( jcopley18@hotmail.com ) 
normal tuning 

i just piced this up somewhere and it's not all right but close enough! I'm 2 lazy to change it right now. 

Verse 
G| 
D| 
A|------------2| 
E|0-2-3-0-2-0--| 

Pre Chorus 
G|-----------------||------| 
D|-----------------||------| 
A|--------------2--||------| 
E|0-2-2-0-0-2-3---2||:3----| 

Chorus 
G|-----------| 
D|-----------| 
A|-----------| 
E|0-0--0-0---| 

Bridge 
G|------------| 
D|------------| 
A|------------| 
E|0-0-0-0-3---| 
 
 

Видео