Deftones - Needles And Pins, аккорды

Прокрутка
Тональность
Шрифт
100
Deftones 
Needles and Pins
Tuning: F# C# F# B Eb g#

This is a six string tab for this song, which is played by stephen on a detuned
seven string. Yes, it requires some pretty drastic detuning but this is as close
as its gonna get if you don't have a 7.

strumming patterns not given, you should be able to figure it out.

intro/verse
repeat this riff a lot
----------------
----------------
----------------
---11-----11----
------9------9--
-0------0-------

chorus
------------
------------
-13--9------
-11--7--12--
-11--7--12--
-11--7--12--

post chorus part
repeat this alot as well
-------------
-------------
-------------
---11-11--11-
---9--9---9--
-0---0--0----
 
 

Видео