Deftones - No Ordinary Love, аккорды

Прокрутка
Тональность
Шрифт
100
Deftones - No Ordinary Love (sade cover)
from the album highschool superstars 


G-----------------------------
D-----------------------------
A--------------5--------------
E-7--7-(0)-5h7---7------------

Variation,

G---------------
D--------9------
A---------------
E-7-5-7---------

It's as easy as that, just mess about with the variation a bit, thats all 

there is too it!
 
 

Видео