Deftones - One Weak, аккорды

Прокрутка
Тональность
Шрифт
100
---------------------------
***One Weak-the Deftones***
---------------------------

Written by the Deftones


4-string bass in standard tuning


VERSE:

G|--------------------------------------------------|
D|--------------------------------------------------|
A|--------------------------------------------------|
E|--0--2--2--0--2--2--0--2--2--0--2--0--2--3--3--3--|


CHORUS:

G|-----------------------------------------------------------------|
D|-----------------------------------------------------------------|
A|--4--4-----------------------------------------------------------|
E|--------4--0--0--0--3--3--3--2--2--2--2--3--5--5--5--3--3--3--3--|


OUTRO:

G|--------------------------------------------------|
D|--------------------------------------------------|
A|--------------------------------------------------|
E|--2--2--2--0--0--0--2--2--2--0--0--0--2--2--3--3--|






Transcribed by Max Asare




 
 

Видео