Misc Computer Games - Last Light (OST "Metro 2033"), аккорды

Прокрутка
Тональность
Шрифт
100
e|---------------------------------------------------------------
B|---------------------------------------------------------------
G|-----------------------------4--5-4-5--------------------------
D|---2------4----2----1------------------4------4--5-4-5---4-5-2-
A|----------3----2----0--------0---------2-------0---------------
E|-0-------5----3----2-------3----------------------------0------

e|-----------------------------------------------------
B|-----------------------------------------------------
G|-----------------------------------------------------
D|---2------4----2----1----2------7-5-4---5-4-2----4-1-
A|----------3----2----0--------------------------------
E|-0-------5----3----2----0-------5-------3--------2---

e|-----------------------------------------------------------------------------------------
B|-----------------------------------------------------------------------------------------
G|-----------------------------4--5-4-5---------------------------------------------------- 
D|---2------4----2----1------------------4------4---5-4-5---4-5-2---2----4----2----1--2----
A|----------3----2----0--------0---------2-------0------------------------3----2----0----2-
E|-0-------5----3----2-------3----------------------------0--------0-----5----3----2-----0-
 
 

Видео