Misc Computer Games - Gesundheit - First for the first (Мод для бесконечного лета "Современный Совёнок"), аккорды

Прокрутка
Тональность
Шрифт
100
e|--------------------------|--------------------------|--------------------------|
B|--------------3-----------|-----------3-----------2--|--------------2-----------|
G|--------0--------0-----0--|--------0-----------2-----|--------4--------4-----4--|
D|-----4-----4--------4-----|-----4-----------4--------|-----4-----4--------4-----|
A|--5-----------------------|--5-----------4-----------|--2-----------------------|
E|--------------------------|--------------------------|--------------------------|

e|--------------------------|--------------------------|--------------------------|
B|-----------2-----------0--|--------------------------|--------------------------|
G|--------4-----------2-----|--------------0-----------|-----------0-----------0--|
D|-----4-----------2--------|--------4--------4-----4--|--------4-----------4-----|
A|--2-----------0-----------|-----5-----5--------5-----|-----5-----------4--------|
E|--------------------------|--3-----------------------|--3-----------2-----------|

e|--------------------------|--------------------------|--------------0-----------|
B|--------------------------|-----------------------2--|--------3--------3-----3--|
G|--------------0-----------|-----------0--------2-----|-----2-----2--------2-----|
D|--------2--------2-----2--|--------0--------2--------|--0-----------------------|
A|-----2-----2--------2-----|-----2--------0-----------|--------------------------|
E|--0-----------------------|--3-----------------------|--------------------------|

e|--------------0-----------|--------------3--------2--|--------0--------2--------|
B|-----------------3-----3--|--------3--------3--------|--3--------3--------3-----|
G|--------3-----------2-----|-----0-----0--------0-----|-----0--------0--------0--|
D|-----2-----2--------------|--------------------------|--------------------------|
A|--4-----------------------|--2-----------------------|--------------------------|
E|--------------------------|--------------------------|--------------------------|

e|--------------0-----------|--------------0-----------|--------------0-----------|
B|-----------3-----3--------|-----------3-----3--------|-----------3-----3--------|
G|--------0-----------0-----|--------0-----------0-----|--------3-----------3-----|
D|-----2-----------------2--|-----2-----------------2--|-----3-----------------3--|
A|--3-----------------------|--2-----------------------|--1-----------------------|
E|--------------------------|--------------------------|--------------------------|

e|--------------------------|--------------2-----------|--------------3-----------|
B|-----------3----------↑-2-|--(2)---------------------|--3--------------------3--|
G|--------2-------------↑-2-|--(2)---------------0-----|-----0-----0--------0-----|
D|-----2----------------↑-2-|--(2)------------4-----4--|--------4--------4--------|
A|--0-------------------↑-0-|--(0)---------5-----------|--------------5-----------|
E|--------------------------|--------------------------|--------------------------|

e|--2-----------2-----------|--------------2-----------|--0-----------------------|
B|-----------2--------------|--2--------------------2--|-----------0--0-----------|
G|--------2-----------4-----|-----4-----4--------4-----|--------2-----------------|
D|-----4-----------4-----4--|--------4--------4--------|-----2--------------4-----|
A|--4-----------2-----------|--------------2-----------|--0--------------5-----5--|
E|--------------------------|--------------------------|--------------3-----------|

e|--------------------------|--------------------------|--------------------------|
B|--------------0-----------|--0-----------0-----------|--------------3-----------|
G|--0--------------------0--|-----------0--------------|--0--------------------0--|
D|-----4-----4--------4-----|--------4-----------2-----|-----2-----2--------0-----|
A|--------5--------5--------|-----4-----------2-----2--|--------2--------2--------|
E|--------------3-----------|--2-----------0-----------|--------------3-----------|

e|--0-----------------------|--0-----------------------|--0-----------------------|
B|-----------2--------3-----|-----3-----3--------3-----|-----3-----3--------3-----|
G|--------2--------2-----2--|--------2--------2-----2--|--------2--------0-----0--|
D|-----2--------0-----------|--------------4-----------|--------------2-----------|
A|--0-----------0-----------|--------------4-----------|--------------2-----------|
E|--------------------------|--------------------------|--------------------------|

e|--3--------2--------0-----|-----2--------------------|--0-----------------------|
B|-----3--------3--------3--|--------3-----------------|-----3-----------------3--|
G|--------0--------0--------|--0--------0-----------3--|--------0-----------0-----|
D|--------------------------|--------------------0-----|-----------2-----2--------|
A|--------------------------|-------------↑3--2--------|--------------2-----------|
E|--------------------------|-------------↑3-----------|--------------0-----------|

e|--0-----------------------|0-------------------------|--------------------------|
B|-----3-----------------3--|---3-----------------3----|--(3)--↑2-----------------|
G|--------0-----------3-----|------3-----------2-------|-------↑2-----------------|
D|-----------2-----3--------|---------3-----2----------|-------↑2-----------------|
A|--------------1-----------|------------0-------------|-------↑0-----------------|
E|--------------1-----------|------------0-------------|--------------------------|

e|--2-----------------------|--3-----------2-----------|--2-----------------------|
B|--------------3-----------|-----------3-----------2--|--------------2-----------|
G|--------0--------0-----0--|--------0-----------2-----|--------4--------4-----4--|
D|-----4-----4--------4-----|-----4-----------4--------|-----4-----4--------4-----|
A|--5-----------------------|--5-----------4-----------|--2-----------------------|
E|--------------------------|--------------------------|--------------------------|

e|--2-----------0-----------|--------------------------|--------------------------|
B|-----------2-----------0--|--0-----------------------|--0-----------0-----------|
G|--------4-----------2-----|--------------0-----------|-----------0-----------0--|
D|-----4-----------2--------|--------4--------4-----4--|--------4-----------4-----|
A|--2-----------0-----------|-----5-----5--------5-----|-----5-----------4--------|
E|--------------------------|--3-----------------------|--3-----------2-----------|

e|--------------------------|--------------0-----------|------------↓2------------|
B|--0-----------------------|--3--------------------2--|--(2)-------↓3------------|
G|--------------0-----------|-----------0--------2-----|------------↓4------------|
D|--------2--------2-----2--|--------0--------2--------|------------↓4------------|
A|-----2-----2--------2-----|-----2--------0-----------|------------↓2------------|
E|--0-----------------------|--3-----------------------|--------------------------|

Комментарий автора:

Долго просили, долго искали, а мне было всё лень и лень всё это делать.
Но, нашелся герой! Большое спасибо Артёму Семёнову за проделанную работу. Родина тебя не забудет!
 
 
Свернуть Распечатать