Misc Computer Games - E1M2 (OST "Doom", btab), аккорды

Прокрутка
Тональность
Шрифт
100
Bass:
      W                   Н.           Е  Е   x4   Q    Q    Q    Е  Е   
G||--------------------|----------------------||------------------------|
D||*-------------------|---------------------*||*-----------------------|
A||*-------------------|---------------------*||*-----------------------|
E||---2----------------|--L------------L--0---||---2----2----2----2--0--|

  Е  Q    Q    Q    Е     Q    Q    Q    Е  Е     Е  Q    Q    Q    Е   
-----------------------|-----------------------|-----------------------|
-----------------------|-----------------------|-----------------------|
-----------------------|-----------------------|-----------------------|
--2--2----2----2----0--|--2----2----2----2--0--|--2--2----2----2----0--|

  Q    Q    Q    Е  Е     Е  Q    Q    Е  Е  Е     Q    Q    Q    Е  Е   
-----------------------|------------------------|-----------------------|
-----------------------|------------------------|-----------------------|
-----------------------|------------------------|-----------------------|
--2----2----2----2--0--|--2--2----2----2--2--0--|--2----2----2----2--0--|

  Е  Q    Q    Е  Е  Е     Q    Q    Q    Е  Е     Е  Q    Q    Е  Е  Е   
------------------------|-----------------------|------------------------|
------------------------|-----------------------|------------------------|
------------------------|--2----2----2----2--0--|--2--2----2----0--2--0--|
--2--2----2----0--2--0--|-----------------------|------------------------|

  Q    Q    Q    Е  Е     Е  Q    Q    Q    Е     Q    Q    Q    Е  Е   
-----------------------|-----------------------|-----------------------|
-----------------------|-----------------------|-----------------------|
--2----2----2----2--0--|--2--2----2----0----2--|-----------------------|
-----------------------|-----------------------|--2----2----2----2--0--|

  Е  Q    Е  Е  Е  Q       Q    Q    Е  Е  Q       Е  Е  Е  Е  Е  Е  Е  Е   
------------------------|-----------------------|--------------------------|
------------------------|-----------------------|--------------------------|
------------------------|-----------------------|--------------------------|
--L--2----2--2--0--2----|--2----2----2--0--2----|--2--0--2--0--2--0--2--0--|

  Е  Q    Q    Q    Е     Q    Q    Q    Е  Е     Е  Q    Q    Q    Е   
-----------------------|-----------------------|-----------------------|
-----------------------|-----------------------|-----------------------|
--4--4----4----4----2--|--4----4----4----4--2--|--2--2----2----2----0--|
-----------------------|-----------------------|-----------------------|

  Q    Q    Q    Е  Е     Е  Q    Е  Е  Е  Q       Q    Q    Е  Е  Q     
-----------------------|------------------------|-----------------------|
-----------------------|------------------------|-----------------------|
--2----2----2----2--0--|------------------------|-----------------------|
-----------------------|--2--2----2--2--0--2----|--2----2----2--0--2----|

  Q    Q    Q    Q       Е  Е  Е  Е  Е  Е  Е  Е       Q    Q    Q    Е  Е   
----------------------|---------------------------||-----------------------|
----------------------|--------------------------*||-----------------------|
----------------------|-----4-----4-----4--4--4--*||-----------------------|
--2----2----2----2----|---------------------------||--2----2----2----2--0--|

  Е  Q    Q    Q    Е     Q    Q    Q    Е  Е     Е  Q    Q    Q    Е   
-----------------------|-----------------------|-----------------------|
-----------------------|-----------------------|-----------------------|
-----------------------|-----------------------|-----------------------|
--2--2----2----2----0--|--2----2----2----2--0--|--2--2----2----2----0--|

  Q    Q    Q    Е  Е     Е  Q    Q    Е  Е  Е     Q    Q    Q    Е  Е   
-----------------------|------------------------|-----------------------|
-----------------------|------------------------|-----------------------|
-----------------------|------------------------|-----------------------|
--2----2----2----2--0--|--2--2----2----2--2--0--|--2----2----2----2--0--|

  Е  Q    Q    Е  Е  Е     Q    Q    Q    Е  Е     Е  Q    Q    Е  Е  Е   
------------------------|-----------------------|------------------------|
------------------------|-----------------------|------------------------|
------------------------|--2----2----2----2--0--|--2--2----2----0--2--0--|
--2--2----2----0--2--0--|-----------------------|------------------------|

  Q    Q    Q    Е  Е     Е  Q    Q    Q    Е     Q    Q    Q    Е  Е   
-----------------------|-----------------------|-----------------------|
-----------------------|-----------------------|-----------------------|
--2----2----2----2--0--|--2--2----2----0----2--|-----------------------|
-----------------------|-----------------------|--2----2----2----2--0--|

  Е  Q    Е  Е  Е  Q       Q    Q    Е  Е  Q       Е  Е  Е  Е  Е  Е  Е  Е   
------------------------|-----------------------|--------------------------|
------------------------|-----------------------|--------------------------|
------------------------|-----------------------|--------------------------|
--L--2----2--2--0--2----|--2----2----2--0--2----|--2--0--2--0--2--0--2--0--|

  Е  Q    Q    Q    Е     Q    Q    Q    Е  Е     Е  Q    Q    Q    Е   
-----------------------|-----------------------|-----------------------|
-----------------------|-----------------------|-----------------------|
--4--4----4----4----2--|--4----4----4----4--2--|--2--2----2----2----0--|
-----------------------|-----------------------|-----------------------|

  Q    Q    Q    Е  Е     Е  Q    Е  Е  Е  Q       Q    Q    Е  Е  Q     
-----------------------|------------------------|-----------------------|
-----------------------|------------------------|-----------------------|
--2----2----2----2--0--|------------------------|-----------------------|
-----------------------|--2--2----2--2--0--2----|--2----2----2--0--2----|

  Q    Q    Q    Q       Е  Е  Е  Е  Е  Е  Е  Е    
----------------------|--------------------------||
----------------------|--------------------------||
----------------------|-----4-----4-----4--4--4--||
--2----2----2----2----|--------------------------||

Комментарий автора:

Duration Legend
---------------
W - whole
H - half
Q - quarter
E - 8th
S - 16th
T - 32nd
X - 64th
. - note dotted
|-n-|  - n-tuplets

Tablature Legend
----------------
L - tied note
x - dead note
g - grace note
(n) - ghost note
> - accentuded note
NH - natural harmonic
AH - artificial harmonic
TH - tapped harmonic
SH - semi harmonic
PH - pitch harmonic
h - hammer on
p - pull off
b - bend
br - bendRelease
pb - preBend
pbr - preBendRelease
brb - bendReleaseBend

/ - tremolo bar dip

 - tremolo bar dive
-/n - tremolo bar Release up
/n - tremolo bar inverted dip
/n - tremolo bar return
-
 - tremolo bar Release down
S - shift slide
s - legato slide
/ -  slide into from below or out of upwards
 -  slide into from above or out of downwards
~ - vibrato
W - wide vibrato
tr - trill
TP - tremolo picking
T - tapping
S - slap
P - pop
< - fade in
^ - brush up
v - brush down
 
 
Свернуть Распечатать

Аппликатуры аккордов

KykoJlDKykoJlD
автор подбора аккордов
1,379 2 09.01.2020

Видео