Misc Computer Games - OST "Metro: Last light", аккорды

Прокрутка
Тональность
Шрифт
100
Основная тема:
E|--------------------------------|
B|--------------------------------|
G|--------------------------------|
D|-----2/5----------------2-----1-|
A|-----------0----9-----2-----0---|
E|--0-----------8-----3-----2-----|

E|-------------------------------------------|
B|-------------------------------------------|
G|------------------------0------------------|
D|-----2/5------7-5-4-------4--3-----4--1--2-|
A|-----------0-------------------------------|
E|--0------------------3-----------2------0--|
 
 
Свернуть Распечатать

Видео