Misc Computer Games - Final Fantasy 6 - Cyans Theme, аккорды

Прокрутка
Тональность
Шрифт
100
E|--3-8-7---6-1-3---3-8-10-7---6-3-1-3-|
B|-------------------------------------|
G|-------------------------------------|
D|-------------------------------------|
A|-------------------------------------|
e|-------------------------------------|

E|-3-8-7---6-3-1-4-3---------1-----------|
B|---------------------1-3-5-----5-3---1-|
G|-----------------------------------2---|
D|---------------------------------------|
A|---------------------------------------|
e|---------------------------------------|

E|-7-6-1-4-3---7-6-8-5-3-|
B|-----------------------|
G|-----------------------|
D|-----------------------|
A|-----------------------|
e|-----------------------|


Repear as many times as needed
 
 
Свернуть Распечатать