Static X - Permanence, аккорды

Прокрутка
Тональность
Шрифт
100
TABBED BY: Steven B.
TUNEING: Drop D ? Down A Step (CGCFAD)

INTRO
repeat...
D:-----------------------------|-----------------------------------------|
A:-----------------------------|-----------------------------------------|
F:-----------------------------|-----------------------------------------|
C:-----------------------------|-----------------------------------------|
G:--0-0--0-0---000000----------|--1-P-0--1-P-0--1-P-0--1-P-0-------------|
C:--0-0--0-0---000000----------|--1-P-0--1-P-0--1-P-0--1-P-0-------------|
PM-----------------------------

D:-----------------------------------------------------------------------|
A:-----------------------------------------------------------------------|
F:---------x-x-5--------x-x-5-------x-x-5--------x-x-5---------------|
C:-----------------------------------------------------------------------|
G:-1-P-0--------1-P-0--------1-P-0--------1-P-0--------------------------|
C:-1-P-0--------1-P-0--------1-P-0--------1-P-0--------------------------|

D:--------------------------|
A:--------------------------|
F:--------------------------|
C:--------------------------|
G:--777777777777------------|
C:--777777777777------------|

Verse
repeat... repeat...
D:----------------------|-----------------------------------------|
A:----------------------|-----------------------------------------|
F:----------------------|---------x-x-5--------x-x-5------------|
C:----------------------|-----------------------------------------|
G:--1-P-0--1-P-0--------|--1-P-0--------1-P-0---------------------|
C:--1-P-0--1-P-0--------|--1-P-0--------1-P-0---------------------|

Chorus
Strum each chord
numerous times
repeat...
D:--------------------------|----------------------------|
A:--------------------------|----------------------------|
F:---6----8---10---12-------|----------------------------|
C:--x----x----x-----x-------|----------------------------|
G:--4----6----8----10-------|--0-0--0-0---000000---------|
C:--------------------------|--0-0--0-0---000000---------|
PM           ------------------------------

That is all

Комментарий автора:

 = Harmonic
PM = Palm Mute
P = Pull Off
 
 

Видео