Static X - The Only, аккорды

Прокрутка
Тональность
Шрифт
100
Chorus:
E---------------------------------------------------------------------
B---------------------------------------------------------------------
G--5-5-5--55-5-5-5--8-8-8--88-8-8-8-----------------------------------
D--5-5-5--55-5-5-5--8-8-8--88-8-8-8-----------------------------------
A--3-3-3--33-3-3-3--6-6-6--66-6-6-6--6-6-6--66-6-6-6--8-8-8--88-8-8---
E--3-3-3--33-3-3-3--6-6-6--66-6-6-6--4-4-4--44-4-4-4--6-6-6--66-6-6-7-

E---------------------------------------------------------------------
B---------------------------------------------------------------------
G---------------------------------------------------------------------
D--5-5-5--55-5-5-5--8-8-8--88-8-8-8-------------------6-6-6--66-6-8-8-
A--3-3-3--33-3-3-3--6-6-6--66-6-6-6--6-6-6--66-6-6-6--4-4-4--44-4-6-6-
E--3-3-3--33-3-3-3--6-6-6--66-6-6-6--4-4-4--44-4-4-4------------------

Verse:               
E-8--10--11--10---
B---8---8---8---8-
G----------------- x3
D-----------------
A-----------------
E-----------------

After that, you do the chorus again and then the Bridge:
E-----------------------------------------------------------------------
B-----------------------------------------------------------------------
G--5----8-7-3----8-7----------------------------12-12-12-12-12-12-12-12-
D--x----x-x-x----x-x-6-5-6-8-10----8-10-8-10-12--x--x--x--x--x--x--x--x-
A--3----6-5-1----6-5-x-x-x-x--x----x--x-x--x--x-10-10-10-10-10-10-10-10-
E--------------------4-3-4-6--8----6--8-6--8-10-------------------------

E---------------------------------------------------------
B---------------------------------------------------------
G-10-10-10-10-10-10-10-10-8-8-8-8-8-8-8-8-5-5-5-5-8-8-8-8-
D--x--x--x--x--x--x--x--x-x-x-x-x-x-x-x-x-x-x-x-x-x-x-x-x-
A--8--8--8--8--8--8--8--8-6-6-6-6-6-6-6-6-3-3-3-3-6-6-6-6-
E---------------------------------------------------------

E----------------------------------
B----------------------------------
G----------------------------------
D-8h7-7--8h7-7----8h7-7--8h7-7--8z-
A-6h5-5--6h5-5----6h5-5--6h5-5-----
E----------------------------------

Комментарий автора:

x= mute        
h=hammer       
z=harmonic
 
 

Видео