Static X - Otsegolation, аккорды

Прокрутка
Тональность
Шрифт
100
Tabbed by:chubbs721

Tuning: CGCfad

|---|
|---|
|---|
|-0-| 8X
|-0-|
|-0-|

|----16-16-16-16-16-16-|
|----20-20-20-20-20-20-|
|----------------------|
|-0--------------------| 4X
|-0--------------------|
|-0--------------------|

|---------|
|---------|
|---------|
|-0-0-02--| 32X (yes, i counted)
|-0-0-02--|
|-0-0-02--|
  x x x

|----16-16-16-16-16-16-|
|----20-20-20-20-20-20-|
|----------------------|
|-0--------------------| 4X
|-0--------------------|
|-0--------------------|

|---------|
|---------|
|---------|
|-0-0-02-| 16X
|-0-0-02-|
|-0-0-02-|
  x x x

|---|
|---|
|---|
|-0-|
|-0-|
|-0-|

|----16-16-16-16-16-16-|
|----20-20-20-20-20-20-|
|----------------------|
|-0--------------------| 4X
|-0--------------------|
|-0--------------------|

-Bass&Drums-
|---------|
|---------|
|---------|
|-0-10-10-| 16X
|-0-10-10-|
|-0-10-10-|

|----16-16-16-16-16-16-|
|----20-20-20-20-20-20-|
|----------------------|
|-0--------------------| 4X
|-0--------------------|
|-0--------------------|

|---------|
|---------|
|---------|
|-0-10-10-| 48X
|-0-10-10-|
|-0-10-10-|

Комментарий автора:

|  slide down
| x Mute note
 
 

Видео