Static X - Trance Is The Motion, аккорды

Прокрутка
Тональность
Шрифт
100
Tuning: C F A# D# G C

INTRO - Synth introut 45 sec
|----15-------15----------------------|
|----19-------19----------------------|
|-------------------------------------|
|-------------------------------------|
|-------------------------------------|
|-0------0-0------0--0-0-0-0--0--0----|
 .    ...    . ....... . .

|----15-------15----------------------|
|----19-------19----------------------|
|-------------------------------------|
|-------------------------------------|
|-------------------------------------|
|-0------0-0------0--0-0-0-0--0-------|
 .    ...    . ....... .

|----15-------15----------------------|
|----19-------19----------------------|
|-------------------------------------|
|-------------------------------------|
|-------------------------------------|
|-0------0-0------0--0-0-0-0--0--0----|
 .    ...    . ....... . .

|----15-------15----------------------|
|----19-------19----------------------|
|-------------------------------------|
|-------------------------------------|
|-------------------------------------|
|-0------0-0------0--0-0-0-0--0-------|
 .    ...    . ....... .

VERSE:           x2
|-15------------------------|
|----19-----------15--------|
|--------------18-----------|
|---------------------------|
|---------------------------|
|---------------------------|

PRECHORUS:
|----15-------15----------------------|
|----19-------19----------------------|
|-------------------------------------|
|-------------------------------------|
|-------------------------------------|
|-0------0-0------0--0-0-0-0--0--0----|
 .    ...    . ....... . .

|----15-------15----------------------|
|----19-------19----------------------|
|-------------------------------------|
|-------------------------------------|
|-------------------------------------|
|-0------0-0------0--0-0-0-0--0-------|
 .    ...    . ....... .

|----15-------15----------------------|
|----19-------19----------------------|
|-------------------------------------|
|-------------------------------------|
|-------------------------------------|
|-0------0-0------0--0-0-0-0--0--0----|
 .    ...    . ....... . .

|----15-------15----------------------|
|----19-------19----------------------|
|-------------------------------------|
|-------------------------------------|
|-------------------------------------|
|-0------0-0------0--0-0-0-0--0-------|
 .    ...    . ....... .

VERSE:           x2
|-15------------------------|
|----19-----------15--------|
|--------------18-----------|
|---------------------------|
|---------------------------|
|---------------------------|

CHORUS:        x2
|---------------------|
|---------------------|
|---------------------|
|-2----3----2----3----|
|-2----3----2----3----|
|-0----1----0----1----|

Then hit this
|----------|
|----------|
|----------|
|-2--------|
|-2--------|
|-0--------|

BIDGE: - Synth only

CHORUS:
|---------------------|
|---------------------|
|---------------------|
|-2----3----2----3----|
|-2----3----2----3----|
|-0----1----0----1----|

RECHORUS:
|----15-------15----------------------|
|----19-------19----------------------|
|-------------------------------------|
|-------------------------------------|
|-------------------------------------|
|-0------0-0------0--0-0-0-0--0--0----|
 .    ...    . ....... . .

|----15-------15----------------------|
|----19-------19----------------------|
|-------------------------------------|
|-------------------------------------|
|-------------------------------------|
|-0------0-0------0--0-0-0-0--0-------|
 .    ...    . ....... .

|----15-------15----------------------|
|----19-------19----------------------|
|-------------------------------------|
|-------------------------------------|
|-------------------------------------|
|-0------0-0------0--0-0-0-0--0--0----|
 .    ...    . ....... . .

|----15-------15----------------------|
|----19-------19----------------------|
|-------------------------------------|
|-------------------------------------|
|-------------------------------------|
|-0------0-0------0--0-0-0-0--0-------|
 .    ...    . ....... .

VERSE:           x2
|-15------------------------|
|----19-----------15--------|
|--------------18-----------|
|---------------------------|
|---------------------------|
|---------------------------|

         x3
|-15-----------|
|----19--------|
|--------------|
|--------------|
|--------------|
|--------------|

CHORUS 3:
       x3
|---------------------|
|---------------------|
|---------------------|
|-2----3----2----3----|
|-2----3----2----3----|
|-0----1----0----1----|

OUTRO - Synth only
 
 

Видео