Static X - I Am, аккорды

Прокрутка
Тональность
Шрифт
100
Tuning: C F A# D# G C

INTRO:
           x16
|-x-x--x-x-x-x-x-x-x-x--x-x-|
|-x-x--x-x-x-x-x-x-x-x--x-x-|
|-x-x--x-x-x-x-x-x-x-x--x-x-|
|-x-x--x-x-x-x-x-x-x-x--x-x-|
|-x-x--x-x-x-x-x-x-x-x--x-x-|
|-x-x--x-x-x-x-x-x-x-x--x-x-|

       x3
|--------------------|
|--------------------|
|-----12---------12--|
|--------------------|
|-----10---------10--|
|-0-0-----0--0-0-----|
 ...   . ...

|--------------------|
|--------------------|
|-----12-------------|
|--------------------|
|-----10-------------|
|-0-0-----0--0-0-----|
 ...   . ...

       x3
|--------------------|
|--------------------|
|-----12---------12--|
|--------------------|
|-----10---------10--|
|-0-0-----0--0-0-----|
 ...   . ...

|--------------------|
|--------------------|
|-----12-------------|
|--------------------|
|-----10-------------|
|-0-0-----0--0-0-----|
 ...   . ...

VERSE:
|-----------------------------------|
|-----------------------------------|
|-----------------------------------|
|-3-2----3-2----3-2----3-2-2--2--2--|
|-3-2----3-2----3-2----3-2-2--2--2--|
|-1-0----1-0----1-0----1-0-0--0--0--|

|-------------------------------|
|-------------------------------|
|-------------------------------|
|-3-2----3-2----3-2----3-2-2----|
|-3-2----3-2----3-2----3-2-2----|
|-1-0----1-0----1-0----1-0-0----|

CHORUS:
|---------------------------------------------------|
|---------------------------------------------------|
|--------7--7---------7--7---------7--7-------------|
|-3-2-2--------3-2-2--------3-2-2--------3-2-2--3-4-|
|-3-2-2--5--5--3-2-2--5--5--3-2-2--5--5--3-2-2--3-4-|
|-1-0-0--------1-0-0--------1-0-0--------1-0-0--1-2-|

|-----------------------------------------------------|
|-----------------------------------------------------|
|--------7--7---------7--7---------7--7---------------|
|-5-2-2--------3-2-2--------3-2-2--------3-2-2--3-4-5-|
|-5-2-2--5--5--3-2-2--5--5--3-2-2--5--5--3-2-2--3-4-5-|
|-3-0-0--------1-0-0--------1-0-0--------1-0-0--1-2-3-|

BRIDGE:
       x3
|--------------------|
|--------------------|
|-----12---------12--|
|--------------------|
|-----10---------10--|
|-0-0-----0--0-0-----|
 ...   . ...

|--------------------|
|--------------------|
|-----12-------------|
|--------------------|
|-----10-------------|
|-0-0-----0--0-0-----|
 ...   . ...

       x3
|--------------------|
|--------------------|
|-----12---------12--|
|--------------------|
|-----10---------10--|
|-0-0-----0--0-0-----|
 ...   . ...

|--------------------|
|--------------------|
|-----12-------------|
|--------------------|
|-----10-------------|
|-0-0-----0--0-0-----|
 ...   . ...

VERSE:
             x2
|-----------------------------|
|-----------------------------|
|-----------------------------|
|-3-2----3-2----3-2----3-2----|
|-3-2----3-2----3-2----3-2----|
|-1-0----1-0----1-0----1-0----|

CHORUS:
|---------------------------------------------------|
|---------------------------------------------------|
|--------7--7---------7--7---------7--7-------------|
|-3-2-2--------3-2-2--------3-2-2--------3-2-2--3-4-|
|-3-2-2--5--5--3-2-2--5--5--3-2-2--5--5--3-2-2--3-4-|
|-1-0-0--------1-0-0--------1-0-0--------1-0-0--1-2-|

|-----------------------------------------------------|
|-----------------------------------------------------|
|--------7--7---------7--7---------7--7---------------|
|-5-2-2--------3-2-2--------3-2-2--------3-2-2--3-4-5-|
|-5-2-2--5--5--3-2-2--5--5--3-2-2--5--5--3-2-2--3-4-5-|
|-3-0-0--------1-0-0--------1-0-0--------1-0-0--1-2-3-|

INTERLUDE:
           x8
|-x-x--x-x-x-x-x-x-x-x--x-x-|
|-x-x--x-x-x-x-x-x-x-x--x-x-|
|-x-x--x-x-x-x-x-x-x-x--x-x-|
|-x-x--x-x-x-x-x-x-x-x--x-x-|
|-x-x--x-x-x-x-x-x-x-x--x-x-|
|-x-x--x-x-x-x-x-x-x-x--x-x-|

VERSE 3:
|-----------------------------------|
|-----------------------------------|
|-----------------------------------|
|-3-2----3-2----3-2----3-2-2--2--2--|
|-3-2----3-2----3-2----3-2-2--2--2--|
|-1-0----1-0----1-0----1-0-0--0--0--|

|-----------------------------|
|-----------------------------|
|-----------------------------|
|-3-2----3-2----3-2----3-2----|
|-3-2----3-2----3-2----3-2----|
|-1-0----1-0----1-0----1-0----|

BRIDGE:
       x3
|--------------------|
|--------------------|
|-----12---------12--|
|--------------------|
|-----10---------10--|
|-0-0-----0--0-0-----|
 ...   . ...

|--------------------|
|--------------------|
|-----12-------------|
|--------------------|
|-----10-------------|
|-0-0-----0--0-0-----|
 ...   . ...

CHORUS:
|---------------------------------------------------|
|---------------------------------------------------|
|--------7--7---------7--7---------7--7-------------|
|-3-2-2--------3-2-2--------3-2-2--------3-2-2--3-4-|
|-3-2-2--5--5--3-2-2--5--5--3-2-2--5--5--3-2-2--3-4-|
|-1-0-0--------1-0-0--------1-0-0--------1-0-0--1-2-|

|-----------------------------------------------------|
|-----------------------------------------------------|
|--------7--7---------7--7---------7--7---------------|
|-5-2-2--------3-2-2--------3-2-2--------3-2-2--3-4-5-|
|-5-2-2--5--5--3-2-2--5--5--3-2-2--5--5--3-2-2--3-4-5-|
|-3-0-0--------1-0-0--------1-0-0--------1-0-0--1-2-3-|

OUTRO:
           x8
|------------------|
|------------------|
|------------------|
|-2-2--2--2-2--2-2-|
|-2-2--2--2-2--2-2-|
|-0-0--0--0-0--0-0-|
 ... . ... ...
 
 

Видео