Static X - Wisconsin Death Trip, аккорды

Прокрутка
Тональность
Шрифт
100
 Tunidrop guitar a whole step then drop low E string to C (CGCFAD) 

 INTRO:
 D--------------------------------------------
 A--------------------------------------------
 F--8--------8----------------8--------8------
 C--------------------------------------------
 G--------------------------------------------
 C------0---------0---------------0---------0-

 VESE/CHORUS:
 G--0-0-2-0-0-0-3--- 
 C--0-0-2-0-0-0-3--- (then the 4th time exchange the 3 a 2) 

 at the end of the chorus the first time Go... 
 G--2-0-0-2-0-0-3 
 C--2-0-0-2-0-0-3 (that is palm muted) 

 then a slow part of the songs... 
 G--3----------1-- 
 C--3----------1-- (that's repeated a few times) 

 and another part of the songs... 
 D--------------------13-- (the 13 is bended to sound like 14) 
 A------------------------ 
 F------------------------ (repeated a few times) 
 C------------------------ 
 G--0-0-2-0-0-0-----------
 C--0-0-2-0-0-0-----------
 
 

Видео