Static X - Push It, аккорды

Прокрутка
Тональность
Шрифт
100
Riff 1
  D -------- 
  A -------- 
  F 8---8---
  C --------
  G -------- 
  C --0---0- 
 
Riff 2
  D -------------------------------------------------------------
  A -------------------------------------------------------------
  F -------------------------------------------------------------
  C -------------------------------------------------------------
  G 0-0-2-0-0-0-3---0-0-2-0-0-0-3---0-0-2-0-0-0-3---0-0-3-0-0-0-3  
  C 0-0-2-0-0-0-3---0-0-2-0-0-0-3---0-0-2-0-0-0-3---0-0-3-0-0-0-3 

Riff 2a
  D ------------------------------------------------------
  A ------------------------------------------------------
  F -----------------------------------------------8---8--
  C ------------------------------------------------------
  G 0-0-2-0-0-0-3---0-0-2-0-0-0-3---0-0-2-0-0-0-3---------
  C 0-0-2-0-0-0-3---0-0-2-0-0-0-3---0-0-2-0-0-0-3----0---0

Riff 2b
  D -------------------------------------------------------------
  A -------------------------------------------------------------
  F -------------------------------------------------------------
  C -------------------------------------------------------------
  G 0-0-2-0-0-0-3---0-0-2-0-0-0-3---0-0-2-0-0-0-3---x-x-x-x-x-x-x  
  C 0-0-2-0-0-0-3---0-0-2-0-0-0-3---0-0-2-0-0-0-3---x-x-x-x-x-x-x
(Palm Mute x's as if they were 0's)

Riff 3
  D ---------------------------------
  A ---------------------------------
  F ---------------------------------
  C ---------------------------------
  G ---------------------------------  
  C 3---------------1----------------

Structure:
Riff 1 (x8)
Riff 2 (x1)
Riff 2a(x1)
Riff 2 (x7)
Riff 2b(x1)
Riff 1 (x8)
Riff 3 (x1)
Riff 2 (x1)
Riff 3 (x1)
Riff 2 (x4)
 
 

Видео